Magazine Culture

Bientôt rockstar…

Publié le 15 janvier 2009 par Greg

Une résolution n’en est pas une si elle n’est pas tenue. C’est donc avec grand bonheur que je me mets à la guitare électrique car cela faisait pas mal de temps que j’en avais envie ! Sans plus attendre, mes premières impressions sur le site marchand, le matériel et sur le jeu en lui même !

Guitare Yamaha Pacifica 112v + Ampli Line 6 Spider III

Sur la photo : Une Yamaha Pacifica 112V (coloris “Old Sunburst”) ainsi qu’un ampli Line 6 Spider III 15W. Comme on peut le lire sur beaucoup de sites/forums, la Pacifica semble être un bon modèle pour débuter car elle est très polyvalente. Comprenez qu’on peut jouer tous styles. Quant à l’ampli, il possède une très bonne réputation. D’ailleurs, le son délivré est largement suffisant pour jouer dans une chambre. (Je ne dépasse pas les 10%) Les effets applicables ajoutent de nombreuses possibilités sonores et je trouve excellent de pouvoir passer d’un son clair à un son métal, par exemple, en un rien de temps.

J’ai commandé tout ça sur le très sérieux Woodbrass, magasin d’abord présent à Paris, qu’on félicitera pour sa rapidité d’envoi malgré que je m’y soit pris juste après les fêtes et que la commande était complexe. (Guitare, ampli, housse, accordeur électronique, médiators, câble jack…) Le colis a été livré par Chronopost, en parfait état avec des grosses poches d’air pour maintenir les petits cartons dans le tout gros. :)

Qu’est ce que ça donne ? Beenn… pas facile ! Surtout pour un habitué à Guitar Hero… :grin: Après un miraculeux accordage grâce à l’accordeur qu’on peut directement brancher à la guitare grâce au jack, c’est déjà (beaucoup) mieux ! Mon premier morceau fût “Come As You Are” de Nirvana. Comme nombre de gens ayant débuté seuls j’imagine. Après, j’ai cherché à jouer les tablatures de quelques titres me plaisant et pas trop difficiles que voici :

Indochine - L’aventurier (1982)

|----------0-3-0-----------0-3-0----0--0------------|
|--------3-------3-1---1-3--------3---3-------------|
|------2-------------2------------------------------|
|---------------------------------------------------|
|---------------------------------------------------|
|---------------------------------------------------|

Téléphone - Ca c’est vraiment toi (1982)

|---------------------------------------------------|
|---------------------------------------------------|
|---------------------------------------------------|
|---------------4-7---------------------------------|
|-----------5-5---------4-7----9-7------------------|
|--0-0--4-7----------5-5----7-7---------------------|

Red Hot Chili Peppers - Californication (1999)

|--------------------------|------------------------|
|-------0-1----------------|------------------------|
|--------------------------|------0-2---------------|
|---2----------------------|------------------------|
|-0------------------------|---3--------------------|
|--------------------------|-1-----------(Jouer 6X)-|

|--------------------------|----------------1-------|
|-------5------------------|-------------3--3-------|
|--------------------4-----|-----2----------2-------|
|---5------5---------------|----------0-----0-------|
|-3---------------5-----5--|---3---3----------------|
|--------------3-----------|-1----------------------|

The White Stripes - Seven Nation Army (2003)

|--------------------------|------------------------|
|--------------------------|------------------------|
|--------------------------|------------------------|
|--9------9/-12/-9----7----|--5--------4------------|
|--9------9/-12/-9----7----|--5--------4------------|
|--7------7/-10/-7----5----|--3--------2------------|

J’avoue avoir du mal sur le placement des doigts… Mais bon, je suis conscient que cela demande beaucoup d’entraînement et de régularité. Faudra sûrement que je m’exerce à enchaîner des accords de base pour améliorer ma rapidité ! De toute manière, j’irais à mon rythme, parce que je ne considère pas la guitare comme un but absolu mais plutôt comme une façon de me détendre, autrement qu’en pianotant sur le PC. :eek:

Et vous, jouez-vous d’un instrument ? Avez-vous des conseils pour moi ? N’hésitez surtout pas !

PS : Je tiens à remercier mes quatre grands-parents pour leur participation à Noël ainsi que mes parents pour mon anniversaire sans qui je n’aurai pas pu m’offrir ce nouveau loisir.


Vous pourriez être intéressé par :

Retour à La Une de Logo Paperblog

Ces articles peuvent vous intéresser :

  • Bientôt en librairie

    Ca y est, le DICTIONNAIRE DE L'AMOUR ET DU PLAISIR sort le 13 novembre, avec la participation du célèbre Hiroaki Samura (l'habitant de l'infini), du non moins... Lire la suite

    Par  Reyep
    CULTURE, MUSIQUE, MUSIQUE DU MONDE
  • L’ecstasy bientôt légale en Angleterre ?

    En Angleterre, les membres du ACMD (Advisory Council On The Misuse Of Drugs) se réunissent ces jours-ci pour discuter de la rétrogradation de l’ecstasy en class... Lire la suite

    Par  Smaël Bouaici
    CULTURE, MUSIQUE
  • Le nouveau single de Sheryfa Luna bientôt distribué

    Le prochain single de Sheryfa Luna, « Si Tu N'étais Plus Là », devrait arriver sur les ondes le 6 octobre. L’album studio, lui, est prévu pour le mois de... Lire la suite

    Par  Laurent Ballestra
    CULTURE, MUSIQUE, RAP/R&B
  • La vente d'alcool bientôt interdite aux moins de 18 ans

    Acheter et consommer de l’alcool, pour les moins de 18 ans sera bientôt impossible. la ministre de la santé, Roselyne Bachelot, présentera ce mercredi, en... Lire la suite

    Par  Bentlyno
    CULTURE, MUSIQUE, RAP/R&B
  • HEATHER NOVA en concert trés bientôt

    Nouvel album et tournée européenne The Jasmine Flower Ride Beautiful Storm Maybe tomorrow Out on a limb Every soldier is a mother's son Out in New Mexico lookin... Lire la suite

    Par  Emeute Visuelle
    CONCERTS & FESTIVALS, CULTURE, MUSIQUE, SORTIR
  • FICTION PLANE bientôt en concert

    Retour sur les scènes françaises en décembre pour une tournée hivernale. 03 décembre 2008Espace Julien à Marseille http://www.espace-julien.com/ 04 décembre... Lire la suite

    Par  Emeute Visuelle
    CONCERTS & FESTIVALS, CULTURE, MUSIQUE, SORTIR
  • ELLI MEDEIROS bientôt en concert

    4 dates en novembre : Marseille le 19 novembre http://www.montevideo-marseille.com/ ,ARLES le 21 novembre 2008 http://www.cargodenuit.com/ ,STRASBOURG LE 28... Lire la suite

    Par  Emeute Visuelle
    CONCERTS & FESTIVALS, CULTURE, MUSIQUE, SORTIR

A propos de l’auteur


Greg 38 partages Voir son profil
Voir son blog

l'auteur n'a pas encore renseigné son compte l'auteur n'a pas encore renseigné son compte l'auteur n'a pas encore renseigné son compte

Magazines